0
SECTION
2
HEADER
9
$EXTMIN
10
1.0
20
1.0
9
$EXTMAX
10
10.0
20
10.0
0
ENDSEC
0
SECTION
2
TABLES
0
TABLE
2
LTYPE
70
1
0
LTYPE
2
CONTINUOUS
70
64
3
Solid line
72
65
73
0
40
0.0
0
ENDTAB
0
TABLE
2
LAYER
70
3
0
LAYER
2
TITLE
70
0
62
3
6
CONTINUOUS
0
LAYER
2
BARS
70
0
62
7
6
CONTINUOUS
0
LAYER
2
AXES
70
0
62
1
6
CONTINUOUS
0
ENDTAB
0
TABLE
2
VIEW
70
0
0
ENDTAB
0
ENDSEC
0
SECTION
2
ENTITIES
0
SOLID
8
BARS
10
0.0
20
0.0
30
0.0
11
1.0
21
0.0
31
0.0
12
0.0
22
1.0
32
0.0
13
1.0
23
1.0
33
0.0
39
0.0
0
SOLID
8
BARS
10
1.0
20
0.0
30
0.0
11
2.0
21
0.0
31
0.0
12
1.0
22
2.0
32
0.0
13
2.0
23
2.0
33
0.0
39
0.0
0
SOLID
8
BARS
10
2.0
20
0.0
30
0.0
11
3.0
21
0.0
31
0.0
12
2.0
22
3.0
32
0.0
13
3.0
23
3.0
33
0.0
39
0.0
0
SOLID
8
BARS
10
3.0
20
0.0
30
0.0
11
4.0
21
0.0
31
0.0
12
3.0
22
2.0
32
0.0
13
4.0
23
2.0
33
0.0
39
0.0
0
SOLID
8
BARS
10
4.0
20
0.0
30
0.0
11
5.0
21
0.0
31
0.0
12
4.0
22
1.0
32
0.0
13
5.0
23
1.0
33
0.0
39
0.0
0
SOLID
8
BARS
10
5.0
20
0.0
30
0.0
11
6.0
21
0.0
31
0.0
12
5.0
22
4.0
32
0.0
13
6.0
23
4.0
33
0.0
39
0.0
0
SOLID
8
BARS
10
6.0
20
0.0
30
0.0
11
7.0
21
0.0
31
0.0
12
6.0
22
5.0
32
0.0
13
7.0
23
5.0
33
0.0
39
0.0
0
SOLID
8
BARS
10
7.0
20
0.0
30
0.0
11
8.0
21
0.0
31
0.0
12
7.0
22
9.0
32
0.0
13
8.0
23
9.0
33
0.0
39
0.0
0
SOLID
8
BARS
10
8.0
20
0.0
30
0.0
11
9.0
21
0.0
31
0.0
12
8.0
22
5.0
32
0.0
13
9.0
23
5.0
33
0.0
39
0.0
0
SOLID
8
BARS
10
9.0
20
0.0
30
0.0
11
10.0
21
0.0
31
0.0
12
9.0
22
7.0
32
0.0
13
10.0
23
7.0
33
0.0
39
0.0
0
LINE
8
AXES
10
0.0
20
0.0
30
0.0
11
10.0
21
0.0
31
0.0
0
LINE
8
AXES
10
0.0
20
0.3
30
0.0
11
0.0
21
0.0
31
0.0
0
TEXT
8
AXES
10
0.0
20
-3.50000000000000E-0001
30
0
40
 2.50000000000000E-0001
1
0.0
0
LINE
8
AXES
10
1.0
20
0.3
30
0.0
11
1.0
21
0.0
31
0.0
0
TEXT
8
AXES
10
1.0
20
-3.50000000000000E-0001
30
0
40
 2.50000000000000E-0001
1
1.0
0
LINE
8
AXES
10
2.0
20
0.3
30
0.0
11
2.0
21
0.0
31
0.0
0
TEXT
8
AXES
10
2.0
20
-3.50000000000000E-0001
30
0
40
 2.50000000000000E-0001
1
2.0
0
LINE
8
AXES
10
3.0
20
0.3
30
0.0
11
3.0
21
0.0
31
0.0
0
TEXT
8
AXES
10
3.0
20
-3.50000000000000E-0001
30
0
40
 2.50000000000000E-0001
1
3.0
0
LINE
8
AXES
10
4.0
20
0.3
30
0.0
11
4.0
21
0.0
31
0.0
0
TEXT
8
AXES
10
4.0
20
-3.50000000000000E-0001
30
0
40
 2.50000000000000E-0001
1
4.0
0
LINE
8
AXES
10
5.0
20
0.3
30
0.0
11
5.0
21
0.0
31
0.0
0
TEXT
8
AXES
10
5.0
20
-3.50000000000000E-0001
30
0
40
 2.50000000000000E-0001
1
5.0
0
LINE
8
AXES
10
6.0
20
0.3
30
0.0
11
6.0
21
0.0
31
0.0
0
TEXT
8
AXES
10
6.0
20
-3.50000000000000E-0001
30
0
40
 2.50000000000000E-0001
1
6.0
0
LINE
8
AXES
10
7.0
20
0.3
30
0.0
11
7.0
21
0.0
31
0.0
0
TEXT
8
AXES
10
7.0
20
-3.50000000000000E-0001
30
0
40
 2.50000000000000E-0001
1
7.0
0
LINE
8
AXES
10
8.0
20
0.3
30
0.0
11
8.0
21
0.0
31
0.0
0
TEXT
8
AXES
10
8.0
20
-3.50000000000000E-0001
30
0
40
 2.50000000000000E-0001
1
8.0
0
LINE
8
AXES
10
9.0
20
0.3
30
0.0
11
9.0
21
0.0
31
0.0
0
TEXT
8
AXES
10
9.0
20
-3.50000000000000E-0001
30
0
40
 2.50000000000000E-0001
1
9.0
0
LINE
8
AXES
10
10.0
20
0.3
30
0.0
11
10.0
21
0.0
31
0.0
0
TEXT
8
AXES
10
10.0
20
-3.50000000000000E-0001
30
0
40
 2.50000000000000E-0001
1
10.0
0
LINE
8
AXES
10
0.0
20
0.0
30
0.0
11
0.0
21
9.0
31
0.0
0
LINE
8
AXES
10
0.0
20
0.0
30
0.0
11
0.3
21
0.0
31
0.0
0
TEXT
8
AXES
10
-1
20
 0.00000000000000E+0000
30
0
40
 2.50000000000000E-0001
1
0.0
0
LINE
8
AXES
10
0.0
20
0.9
30
0.0
11
0.3
21
0.9
31
0.0
0
TEXT
8
AXES
10
-1
20
 9.00000000000000E-0001
30
0
40
 2.50000000000000E-0001
1
0.9
0
LINE
8
AXES
10
0.0
20
1.8
30
0.0
11
0.3
21
1.8
31
0.0
0
TEXT
8
AXES
10
-1
20
 1.80000000000000E+0000
30
0
40
 2.50000000000000E-0001
1
1.8
0
LINE
8
AXES
10
0.0
20
2.7
30
0.0
11
0.3
21
2.7
31
0.0
0
TEXT
8
AXES
10
-1
20
 2.70000000000000E+0000
30
0
40
 2.50000000000000E-0001
1
2.7
0
LINE
8
AXES
10
0.0
20
3.6
30
0.0
11
0.3
21
3.6
31
0.0
0
TEXT
8
AXES
10
-1
20
 3.60000000000000E+0000
30
0
40
 2.50000000000000E-0001
1
3.6
0
LINE
8
AXES
10
0.0
20
4.5
30
0.0
11
0.3
21
4.5
31
0.0
0
TEXT
8
AXES
10
-1
20
 4.50000000000000E+0000
30
0
40
 2.50000000000000E-0001
1
4.5
0
LINE
8
AXES
10
0.0
20
5.4
30
0.0
11
0.3
21
5.4
31
0.0
0
TEXT
8
AXES
10
-1
20
 5.40000000000000E+0000
30
0
40
 2.50000000000000E-0001
1
5.4
0
LINE
8
AXES
10
0.0
20
6.3
30
0.0
11
0.3
21
6.3
31
0.0
0
TEXT
8
AXES
10
-1
20
 6.30000000000000E+0000
30
0
40
 2.50000000000000E-0001
1
6.3
0
LINE
8
AXES
10
0.0
20
7.2
30
0.0
11
0.3
21
7.2
31
0.0
0
TEXT
8
AXES
10
-1
20
 7.20000000000000E+0000
30
0
40
 2.50000000000000E-0001
1
7.2
0
LINE
8
AXES
10
0.0
20
8.1
30
0.0
11
0.3
21
8.1
31
0.0
0
TEXT
8
AXES
10
-1
20
 8.10000000000000E+0000
30
0
40
 2.50000000000000E-0001
1
8.1
0
LINE
8
AXES
10
0.0
20
9.0
30
0.0
11
0.3
21
9.0
31
0.0
0
TEXT
8
AXES
10
-1
20
 9.00000000000000E+0000
30
0
40
 2.50000000000000E-0001
1
9.0
0
TEXT
8
TITLE
10
2.0
20
10.0
30
0.0
40
0.3
1
TurboDXF Bar Chart Demo
50
0.0
0
ENDSEC
0
EOF
